ISO-10303-21;
HEADER;
FILE_DESCRIPTION (( 'STEP AP203' ),
    '1' );
FILE_NAME ('CTR10-050-K02-100-1 Òðóáà ãëàäêàÿ æåñòêàÿ ÏÍÄ d50 ÈÝÊ ÷åðíàÿ (100ì).STEP',
    '2016-05-17T06:40:41',
    ( '' ),
    ( '' ),
    'SwSTEP 2.0',
    'SolidWorks 2014',
    '' );
FILE_SCHEMA (( 'CONFIG_CONTROL_DESIGN' ));
ENDSEC;

DATA;
#1 = AXIS2_PLACEMENT_3D ( 'NONE', #27, #86, #26 ) ;
#2 = DIRECTION ( 'NONE',  ( -0.0000000000000000000, -0.0000000000000000000, -1.000000000000000000 ) ) ;
#3 = VERTEX_POINT ( 'NONE', #32 ) ;
#4 = PERSON_AND_ORGANIZATION ( #161, #54 ) ;
#5 = ORIENTED_EDGE ( 'NONE', *, *, #64, .F. ) ;
#6 =( GEOMETRIC_REPRESENTATION_CONTEXT ( 3 ) GLOBAL_UNCERTAINTY_ASSIGNED_CONTEXT ( ( #164 ) ) GLOBAL_UNIT_ASSIGNED_CONTEXT ( ( #98, #100, #28 ) ) REPRESENTATION_CONTEXT ( 'NONE', 'WORKASPACE' ) );
#7 = CARTESIAN_POINT ( 'NONE',  ( 0.0000000000000000000, 0.0000000000000000000, 2000.000000000000000 ) ) ;
#8 = ADVANCED_FACE ( 'NONE', ( #139, #126 ), #136, .T. ) ;
#9 = DESIGN_CONTEXT ( 'detailed design', #129, 'design' ) ;
#10 = DIRECTION ( 'NONE',  ( 0.0000000000000000000, 0.0000000000000000000, 1.000000000000000000 ) ) ;
#11 = FACE_OUTER_BOUND ( 'NONE', #48, .T. ) ;
#12 = CALENDAR_DATE ( 2016, 17, 5 ) ;
#13 = DIRECTION ( 'NONE',  ( 1.000000000000000000, 0.0000000000000000000, 0.0000000000000000000 ) ) ;
#14 = DIRECTION ( 'NONE',  ( 0.0000000000000000000, 0.0000000000000000000, 1.000000000000000000 ) ) ;
#15 = DIRECTION ( 'NONE',  ( -1.000000000000000000, 0.0000000000000000000, 0.0000000000000000000 ) ) ;
#16 = CC_DESIGN_PERSON_AND_ORGANIZATION_ASSIGNMENT ( #132, #90, ( #148 ) ) ;
#17 = ADVANCED_BREP_SHAPE_REPRESENTATION ( 'CTR10-050-K02-100-1 T¨ºñð óûðôúð  öõ¸ªúð  ¦=- d50 L¦¦ ¢õ¨ýð  (100ü)', ( #117, #39 ), #6 ) ;
#18 = DIRECTION ( 'NONE',  ( -1.000000000000000000, 0.0000000000000000000, 0.0000000000000000000 ) ) ;
#19 = AXIS2_PLACEMENT_3D ( 'NONE', #145, #146, #157 ) ;
#20 = AXIS2_PLACEMENT_3D ( 'NONE', #138, #156, #147 ) ;
#21 = PLANE ( 'NONE',  #22 ) ;
#22 = AXIS2_PLACEMENT_3D ( 'NONE', #95, #143, #50 ) ;
#23 = COORDINATED_UNIVERSAL_TIME_OFFSET ( 3, 0, .AHEAD. ) ;
#24 = EDGE_LOOP ( 'NONE', ( #104 ) ) ;
#25 = ADVANCED_FACE ( 'NONE', ( #11, #109 ), #153, .F. ) ;
#26 = DIRECTION ( 'NONE',  ( 1.000000000000000000, 0.0000000000000000000, -0.0000000000000000000 ) ) ;
#27 = CARTESIAN_POINT ( 'NONE',  ( 0.0000000000000000000, 0.0000000000000000000, 2000.000000000000000 ) ) ;
#28 =( NAMED_UNIT ( * ) SI_UNIT ( $, .STERADIAN. ) SOLID_ANGLE_UNIT ( ) );
#29 = EDGE_LOOP ( 'NONE', ( #125 ) ) ;
#30 = AXIS2_PLACEMENT_3D ( 'NONE', #7, #51, #71 ) ;
#31 = CARTESIAN_POINT ( 'NONE',  ( 22.00000000000000400, 0.0000000000000000000, 0.0000000000000000000 ) ) ;
#32 = CARTESIAN_POINT ( 'NONE',  ( 25.00000000000000000, 0.0000000000000000000, 2000.000000000000000 ) ) ;
#33 = EDGE_LOOP ( 'NONE', ( #78 ) ) ;
#34 = COORDINATED_UNIVERSAL_TIME_OFFSET ( 3, 0, .AHEAD. ) ;
#35 = CARTESIAN_POINT ( 'NONE',  ( 22.00000000000000400, 0.0000000000000000000, 2000.000000000000000 ) ) ;
#36 = DIRECTION ( 'NONE',  ( 1.000000000000000000, 0.0000000000000000000, 0.0000000000000000000 ) ) ;
#37 = APPROVAL_DATE_TIME ( #133, #49 ) ;
#38 = EDGE_LOOP ( 'NONE', ( #5 ) ) ;
#39 = AXIS2_PLACEMENT_3D ( 'NONE', #68, #10, #36 ) ;
#40 = APPROVAL_STATUS ( 'not_yet_approved' ) ;
#41 = EDGE_LOOP ( 'NONE', ( #89 ) ) ;
#42 = APPLICATION_CONTEXT ( 'configuration controlled 3d designs of mechanical parts and assemblies' ) ;
#43 = APPLICATION_PROTOCOL_DEFINITION ( 'international standard', 'config_control_design', 1994, #42 ) ;
#44 = AXIS2_PLACEMENT_3D ( 'NONE', #67, #2, #18 ) ;
#45 = APPROVAL_PERSON_ORGANIZATION ( #124, #65, #128 ) ;
#46 = AXIS2_PLACEMENT_3D ( 'NONE', #70, #61, #15 ) ;
#47 = CC_DESIGN_APPROVAL ( #65, ( #80 ) ) ;
#48 = EDGE_LOOP ( 'NONE', ( #163 ) ) ;
#49 = APPROVAL ( #40, 'UNSPECIFIED' ) ;
#50 = DIRECTION ( 'NONE',  ( 1.000000000000000000, 0.0000000000000000000, -0.0000000000000000000 ) ) ;
#51 = DIRECTION ( 'NONE',  ( 0.0000000000000000000, 0.0000000000000000000, 1.000000000000000000 ) ) ;
#52 = CARTESIAN_POINT ( 'NONE',  ( 25.00000000000000000, 0.0000000000000000000, 0.0000000000000000000 ) ) ;
#53 = CIRCLE ( 'NONE', #20, 25.00000000000000000 ) ;
#54 = ORGANIZATION ( 'UNSPECIFIED', 'UNSPECIFIED', '' ) ;
#55 = DATE_AND_TIME ( #69, #122 ) ;
#56 = AXIS2_PLACEMENT_3D ( 'NONE', #57, #14, #13 ) ;
#57 = CARTESIAN_POINT ( 'NONE',  ( 0.0000000000000000000, 0.0000000000000000000, 0.0000000000000000000 ) ) ;
#58 = EDGE_CURVE ( 'NONE', #159, #159, #134, .T. ) ;
#59 = APPROVAL_STATUS ( 'not_yet_approved' ) ;
#60 = ADVANCED_FACE ( 'NONE', ( #66, #63 ), #21, .F. ) ;
#61 = DIRECTION ( 'NONE',  ( -0.0000000000000000000, -0.0000000000000000000, -1.000000000000000000 ) ) ;
#62 = MECHANICAL_CONTEXT ( 'NONE', #42, 'mechanical' ) ;
#63 = FACE_BOUND ( 'NONE', #77, .T. ) ;
#64 = EDGE_CURVE ( 'NONE', #162, #162, #149, .T. ) ;
#65 = APPROVAL ( #59, 'UNSPECIFIED' ) ;
#66 = FACE_OUTER_BOUND ( 'NONE', #41, .T. ) ;
#67 = CARTESIAN_POINT ( 'NONE',  ( 0.0000000000000000000, 0.0000000000000000000, 2000.000000000000000 ) ) ;
#68 = CARTESIAN_POINT ( 'NONE',  ( 0.0000000000000000000, 0.0000000000000000000, 0.0000000000000000000 ) ) ;
#69 = CALENDAR_DATE ( 2016, 17, 5 ) ;
#70 = CARTESIAN_POINT ( 'NONE',  ( 0.0000000000000000000, 0.0000000000000000000, 2000.000000000000000 ) ) ;
#71 = DIRECTION ( 'NONE',  ( 1.000000000000000000, 0.0000000000000000000, 0.0000000000000000000 ) ) ;
#72 = CC_DESIGN_APPROVAL ( #84, ( #135 ) ) ;
#73 = EDGE_CURVE ( 'NONE', #3, #3, #53, .T. ) ;
#74 = DATE_TIME_ROLE ( 'classification_date' ) ;
#75 = APPROVAL_STATUS ( 'not_yet_approved' ) ;
#76 = COORDINATED_UNIVERSAL_TIME_OFFSET ( 3, 0, .AHEAD. ) ;
#77 = EDGE_LOOP ( 'NONE', ( #142 ) ) ;
#78 = ORIENTED_EDGE ( 'NONE', *, *, #73, .T. ) ;
#79 = PLANE ( 'NONE',  #1 ) ;
#80 = SECURITY_CLASSIFICATION ( '', '', #169 ) ;
#81 = COORDINATED_UNIVERSAL_TIME_OFFSET ( 3, 0, .AHEAD. ) ;
#82 = CC_DESIGN_PERSON_AND_ORGANIZATION_ASSIGNMENT ( #88, #92, ( #80 ) ) ;
#83 = CC_DESIGN_DATE_AND_TIME_ASSIGNMENT ( #55, #108, ( #135 ) ) ;
#84 = APPROVAL ( #75, 'UNSPECIFIED' ) ;
#85 = COORDINATED_UNIVERSAL_TIME_OFFSET ( 3, 0, .AHEAD. ) ;
#86 = DIRECTION ( 'NONE',  ( 0.0000000000000000000, 0.0000000000000000000, 1.000000000000000000 ) ) ;
#87 = DATE_AND_TIME ( #12, #119 ) ;
#88 = PERSON_AND_ORGANIZATION ( #161, #54 ) ;
#89 = ORIENTED_EDGE ( 'NONE', *, *, #110, .F. ) ;
#90 = PERSON_AND_ORGANIZATION_ROLE ( 'creator' ) ;
#91 = PERSON_AND_ORGANIZATION_ROLE ( 'design_supplier' ) ;
#92 = PERSON_AND_ORGANIZATION_ROLE ( 'classification_officer' ) ;
#93 = FACE_BOUND ( 'NONE', #38, .T. ) ;
#94 = PRODUCT_DEFINITION_SHAPE ( 'NONE', 'NONE',  #135 ) ;
#95 = CARTESIAN_POINT ( 'NONE',  ( 0.0000000000000000000, 0.0000000000000000000, 0.0000000000000000000 ) ) ;
#96 = CIRCLE ( 'NONE', #19, 25.00000000000000000 ) ;
#97 = DATE_AND_TIME ( #160, #150 ) ;
#98 =( LENGTH_UNIT ( ) NAMED_UNIT ( * ) SI_UNIT ( .MILLI., .METRE. ) );
#99 = CC_DESIGN_DATE_AND_TIME_ASSIGNMENT ( #87, #74, ( #80 ) ) ;
#100 =( NAMED_UNIT ( * ) PLANE_ANGLE_UNIT ( ) SI_UNIT ( $, .RADIAN. ) );
#101 = PERSON_AND_ORGANIZATION_ROLE ( 'design_owner' ) ;
#102 = SHAPE_DEFINITION_REPRESENTATION ( #94, #17 ) ;
#103 = APPROVAL_ROLE ( '' ) ;
#104 = ORIENTED_EDGE ( 'NONE', *, *, #73, .F. ) ;
#105 = CALENDAR_DATE ( 2016, 17, 5 ) ;
#106 = APPROVAL_DATE_TIME ( #127, #84 ) ;
#107 = CLOSED_SHELL ( 'NONE', ( #130, #60, #8, #25 ) ) ;
#108 = DATE_TIME_ROLE ( 'creation_date' ) ;
#109 = FACE_OUTER_BOUND ( 'NONE', #167, .T. ) ;
#110 = EDGE_CURVE ( 'NONE', #113, #113, #96, .T. ) ;
#111 = PERSON_AND_ORGANIZATION_ROLE ( 'creator' ) ;
#112 = APPROVAL_ROLE ( '' ) ;
#113 = VERTEX_POINT ( 'NONE', #52 ) ;
#114 = PERSON_AND_ORGANIZATION ( #161, #54 ) ;
#115 = APPROVAL_PERSON_ORGANIZATION ( #120, #49, #103 ) ;
#116 = FACE_OUTER_BOUND ( 'NONE', #33, .T. ) ;
#117 = MANIFOLD_SOLID_BREP ( 'Áîáûøêà-Âûòÿíóòü1', #107 ) ;
#118 = APPLICATION_PROTOCOL_DEFINITION ( 'international standard', 'config_control_design', 1994, #129 ) ;
#119 = LOCAL_TIME ( 9, 40, 41.00000000000000000, #81 ) ;
#120 = PERSON_AND_ORGANIZATION ( #161, #54 ) ;
#121 = LOCAL_TIME ( 9, 40, 41.00000000000000000, #23 ) ;
#122 = LOCAL_TIME ( 9, 40, 41.00000000000000000, #76 ) ;
#123 = CC_DESIGN_SECURITY_CLASSIFICATION ( #80, ( #148 ) ) ;
#124 = PERSON_AND_ORGANIZATION ( #161, #54 ) ;
#125 = ORIENTED_EDGE ( 'NONE', *, *, #110, .T. ) ;
#126 = FACE_OUTER_BOUND ( 'NONE', #29, .T. ) ;
#127 = DATE_AND_TIME ( #140, #141 ) ;
#128 = APPROVAL_ROLE ( '' ) ;
#129 = APPLICATION_CONTEXT ( 'configuration controlled 3d designs of mechanical parts and assemblies' ) ;
#130 = ADVANCED_FACE ( 'NONE', ( #116, #93 ), #79, .T. ) ;
#131 = CC_DESIGN_PERSON_AND_ORGANIZATION_ASSIGNMENT ( #166, #101, ( #137 ) ) ;
#132 = PERSON_AND_ORGANIZATION ( #161, #54 ) ;
#133 = DATE_AND_TIME ( #105, #121 ) ;
#134 = CIRCLE ( 'NONE', #56, 22.00000000000000400 ) ;
#135 = PRODUCT_DEFINITION ( 'UNKNOWN', '', #148, #9 ) ;
#136 = CYLINDRICAL_SURFACE ( 'NONE', #46, 25.00000000000000000 ) ;
#137 = PRODUCT ( 'CTR10-050-K02-100-1 Òðóáà ãëàäêàÿ æåñòêàÿ ÏÍÄ d50 ÈÝÊ ÷åðíàÿ (100ì)', 'CTR10-050-K02-100-1 Òðóáà ãëàäêàÿ æåñòêàÿ ÏÍÄ d50 ÈÝÊ ÷åðíàÿ (100ì)', '', ( #62 ) ) ;
#138 = CARTESIAN_POINT ( 'NONE',  ( 0.0000000000000000000, 0.0000000000000000000, 2000.000000000000000 ) ) ;
#139 = FACE_OUTER_BOUND ( 'NONE', #24, .T. ) ;
#140 = CALENDAR_DATE ( 2016, 17, 5 ) ;
#141 = LOCAL_TIME ( 9, 40, 41.00000000000000000, #85 ) ;
#142 = ORIENTED_EDGE ( 'NONE', *, *, #58, .T. ) ;
#143 = DIRECTION ( 'NONE',  ( 0.0000000000000000000, 0.0000000000000000000, 1.000000000000000000 ) ) ;
#144 = APPROVAL_DATE_TIME ( #97, #65 ) ;
#145 = CARTESIAN_POINT ( 'NONE',  ( 0.0000000000000000000, 0.0000000000000000000, 0.0000000000000000000 ) ) ;
#146 = DIRECTION ( 'NONE',  ( 0.0000000000000000000, 0.0000000000000000000, 1.000000000000000000 ) ) ;
#147 = DIRECTION ( 'NONE',  ( 1.000000000000000000, 0.0000000000000000000, 0.0000000000000000000 ) ) ;
#148 = PRODUCT_DEFINITION_FORMATION_WITH_SPECIFIED_SOURCE ( 'ANY', '', #137, .NOT_KNOWN. ) ;
#149 = CIRCLE ( 'NONE', #30, 22.00000000000000400 ) ;
#150 = LOCAL_TIME ( 9, 40, 41.00000000000000000, #34 ) ;
#151 = ORIENTED_EDGE ( 'NONE', *, *, #58, .F. ) ;
#152 = CC_DESIGN_PERSON_AND_ORGANIZATION_ASSIGNMENT ( #114, #91, ( #148 ) ) ;
#153 = CYLINDRICAL_SURFACE ( 'NONE', #44, 22.00000000000000400 ) ;
#154 = CC_DESIGN_APPROVAL ( #49, ( #148 ) ) ;
#155 = APPROVAL_PERSON_ORGANIZATION ( #168, #84, #112 ) ;
#156 = DIRECTION ( 'NONE',  ( 0.0000000000000000000, 0.0000000000000000000, 1.000000000000000000 ) ) ;
#157 = DIRECTION ( 'NONE',  ( 1.000000000000000000, 0.0000000000000000000, 0.0000000000000000000 ) ) ;
#158 = PRODUCT_RELATED_PRODUCT_CATEGORY ( 'detail', '', ( #137 ) ) ;
#159 = VERTEX_POINT ( 'NONE', #31 ) ;
#160 = CALENDAR_DATE ( 2016, 17, 5 ) ;
#161 = PERSON ( 'UNSPECIFIED', 'UNSPECIFIED', 'UNSPECIFIED', ('UNSPECIFIED'), ('UNSPECIFIED'), ('UNSPECIFIED') ) ;
#162 = VERTEX_POINT ( 'NONE', #35 ) ;
#163 = ORIENTED_EDGE ( 'NONE', *, *, #64, .T. ) ;
#164 = UNCERTAINTY_MEASURE_WITH_UNIT (LENGTH_MEASURE( 1.000000000000000100E-005 ), #98, 'distance_accuracy_value', 'NONE');
#165 = CC_DESIGN_PERSON_AND_ORGANIZATION_ASSIGNMENT ( #4, #111, ( #135 ) ) ;
#166 = PERSON_AND_ORGANIZATION ( #161, #54 ) ;
#167 = EDGE_LOOP ( 'NONE', ( #151 ) ) ;
#168 = PERSON_AND_ORGANIZATION ( #161, #54 ) ;
#169 = SECURITY_CLASSIFICATION_LEVEL ( 'unclassified' ) ;
ENDSEC;
END-ISO-10303-21;
